Аквариум — Пришел пить воду

Текст песни Аквариум — Пришел пить воду с аккордами для гитары

Каподастр на 2-м ладу 

Вступление:
  Dm               Dm
Е----1----------0---- 1----------
B---3-3-------------3--3---------
G--2---2-----------2----2--------
D-0-----0-3h5---0------0-3h5-
А----------------------------------
Е----------------------------------

Dm A7sus4 - 4р.

    Dm                            A7sus4 Dm A7sus4
Пришел пить воду, не смог узнать её вкус.
    Dm                              Gm6/H A7sus4
Пришел пить воду, не смог узнать её вкус.
 Dm 
Железные скобы вбиты в крылья,
  Gm6/H               Gm6/H 
Источник задушен золотой пылью,
A7sus4/G      A7sus4            Dm
 Закрой за мной - едва ли я вернусь.

Проигрыш: Dm A7sus4 - 2р.

Будешь в Москве, остерегайся говорить о святом.
Будешь в Москве, остерегайся говорить о святом.
            Dm                            Dm/С
Не то - кроткие, как голуби, поймают тебя.
Святые оседлают тебя.
Служители любви вобьют тебя в землю крестом.

Проигрыш:
      е----0--
      b-------
      g------- 
Dm    d-3h5--- - 2р.
      а-------
      е-------

    C                   Gm6/H     Dm Dm/F
А нищие духом блаженны - вопрос снят,
        C                 Gm6/H A7sus4     A7
Но имеющие уши - слышат,       и Покров свят.
Dm                    Dm/С
 Бессмысленны против и за.
   Gm6/H                  Gm6/H 
Что-то изменилось у тебя в глазах. 
A7sus4/G       A7sus4        Dm
Соль теряет силу и становится яд.

Проигрыш: Dm A7sus4 - 2р.

  Dm       A7sus4 Dm A7sus4
Е-5--3-1-0--0-1---------------------
B-----------3-----------------------
G-----------------------2-----------
D-----------------------------------
А-----------------------------------
Е-----------------------------------

  Dm          Gm6/H A7sus4
Е-5--3-6-5-0-1-3-------------------
B----------------------------------
G----------------------------------
D----------------------------------
А----------------------------------
Е----------------------------------

  Dm             Gm6/H Gm6/H 
Е-10-------------------------------
B-----10-8-6-8-10-11-10-8-6--------
G----------------------------------
D----------------------------------
А----------------------------------
Е----------------------------------

A7sus4/G A7sus4 Dm A7sus4 Dm A7sus4
Е-6------------5-3----1----------------------------
B----------------------------------------------------
G----------------------------------------------------
D----------------------------------------------------
А----------------------------------------------------
Е----------------------------------------------------

Пришел пить воду, не смог узнать её вкус.
Пришел пить воду, не смог узнать её вкус.
   Dm               Dm/с
Железные скобы вбиты в крылья,
Источник задушен золотой пылью,
Закрой за мной, я не вернусь.

Bigroi.ru